スポンサーサイト

上記の広告は1ヶ月以上更新のないブログに表示されています。
新しい記事を書く事で広告が消せます。

e-tto

えっとDance of eternityのベースソロです

__________ __________ __________ __________ __________ __________
|--|--|--| |--|--|--| |--|--|--| |--|--|--| |--|--|--| |--|--|--|
| | | | | | | | | | | | | | | | | | | | | | | |
G|----------------------------------------------------|---------------------------
D|------------------------------------10--------------|---------10-12-13-13-12-10-
A|-10-12-12-12--10-12-12-12--10-12-12----12-12-12-12--|--10--12-------------------
E|----------------------------------------------------|---------------------------
B|----------------------------------------------------|---------------------------
distorted bass solo

__________ _________ ________ __________ __________ __________
|--|--|--| |--|-|--| |--|-|-| |--|--|--| |--|--|--| |--|--|--|
| | | | | | | | | | | | | | | | | | | | | | | |
G-----------9-10-10-9----|--------9-10-12-12-10-9-------10-12-13-13-12-10-|
D--------12-----------12-|------------------------------------------------|
A--10-12-----------------|--10-12-----------------10-12-------------------|
E------------------------|------------------------------------------------|
B------------------------|------------------------------------------------|


__________ __________ __________ __________ __________
|--|--|--| | | |--|--|--| |--|--|--| |--|--|--| |--|--|--|
| | | | |. | | | | | | | | | | | | | | | | |
C|----------------------------14-------16-17-16-14-|-------------------------
G|--------------/14--14----16----16-17-------------|-14-12-------12-14-------
D|-------------------------------------------------|-------15-14-------15-14-
A|--10-12-12-12------------------------------------|-------------------------
E|-------------------------------------------------|-------------------------
B|-------------------------------------------------|-------------------------


__________ __________ __________ __________ __________ __________
|--|--|--| |--|--|--| |--|--|--| |--|--|--| |--|--|--| |--|--|--|
| | | | | | | | | | | | | | | | | | | | | | | |
C-------------------------|-------------------------16-17-16----------------|
G-------------------------|----------------14-16-17----------16-17-14-------|
D-12----------14-12-------|----------12-14----------------------------17-15-|
A----15-14-15-------15-14-|-12-14-15----------------------------------------|
E-------------------------|-------------------------------------------------|
B-------------------------|-------------------------------------------------|


__________ __________ __________
| | | |--|--|--| |--|--|--| 3 | | |--|--|--| |
| |. | | | | | | | | | 4 | |. | | | | |
C|---------------------------------------|-------------------------|
G|---------------------------------------|-------------------------|
D|---------------------------------------|----12--14-14-15-15-14--|
A|-17-15----14---12-12-14-12-12-14-14-15-|-15-----15-15-17-17-15--|
E|---------------------------------------|-------------------------|
B|---------------------------------------|-------------------------|

john myung先生のお手本です



ご覧のとおり人類の限界を超えている

ので
(それ以前にソロはhi-c弦がないからスペック的な意味でも無理)

たとえていうならセレロンオンボでクライシス最高設定くらい無理なので
自分でソロを作ろうと試行錯誤。

ぼちぼちやっていこうかな。







コメントの投稿

非公開コメント

No title

もの凄い分かりやすい例えだ
プロフィール

d2p a.k.a serla

Author:d2p a.k.a serla
完全自己満足主義


最近の記事
最近のコメント
月別アーカイブ
カテゴリー
また来てね♪
RSSフィード
リンク
上記広告は1ヶ月以上更新のないブログに表示されています。新しい記事を書くことで広告を消せます。